ISO-10303-21;
HEADER;
FILE_DESCRIPTION (( 'STEP AP203' ),
    '1' );
FILE_NAME ('Q-AZHWP-25.4-405-M.STEP',
    '2020-12-22T09:10:07',
    ( '' ),
    ( '' ),
    'SwSTEP 2.0',
    'SolidWorks 2020',
    '' );
FILE_SCHEMA (( 'CONFIG_CONTROL_DESIGN' ));
ENDSEC;

DATA;
#1 = APPROVAL_ROLE ( '' ) ;
#2 = PERSON_AND_ORGANIZATION ( #102, #118 ) ;
#3 = EDGE_LOOP ( 'NONE', ( #97, #151 ) ) ;
#4 = ADVANCED_FACE ( 'NONE', ( #111 ), #5, .T. ) ;
#5 = CYLINDRICAL_SURFACE ( 'NONE', #126, 15.00000000000000000 ) ;
#6 = DIRECTION ( 'NONE',  ( -1.000000000000000000, -0.000000000000000000, -0.000000000000000000 ) ) ;
#7 = DIRECTION ( 'NONE',  ( 0.000000000000000000, 0.000000000000000000, 1.000000000000000000 ) ) ;
#8 = FACE_OUTER_BOUND ( 'NONE', #31, .T. ) ;
#9 = EDGE_CURVE ( 'NONE', #157, #81, #141, .T. ) ;
#10 = LOCAL_TIME ( 17, 10, 7.000000000000000000, #115 ) ;
#11 = EDGE_CURVE ( 'NONE', #81, #65, #79, .T. ) ;
#12 = EDGE_CURVE ( 'NONE', #157, #113, #120, .T. ) ;
#13 = PERSON_AND_ORGANIZATION_ROLE ( 'classification_officer' ) ;
#14 = COORDINATED_UNIVERSAL_TIME_OFFSET ( 8, 0, .AHEAD. ) ;
#15 = COORDINATED_UNIVERSAL_TIME_OFFSET ( 8, 0, .AHEAD. ) ;
#16 = DIRECTION ( 'NONE',  ( -1.000000000000000000, -0.000000000000000000, -0.000000000000000000 ) ) ;
#17 = PLANE ( 'NONE',  #70 ) ;
#18 = CARTESIAN_POINT ( 'NONE',  ( 3.000000000000000000, 0.000000000000000000, 0.000000000000000000 ) ) ;
#19 = DIRECTION ( 'NONE',  ( -1.000000000000000000, -0.000000000000000000, -0.000000000000000000 ) ) ;
#20 = ADVANCED_FACE ( 'NONE', ( #148 ), #17, .F. ) ;
#21 = MANIFOLD_SOLID_BREP ( 'Ðý×', #122 ) ;
#22 = CARTESIAN_POINT ( 'NONE',  ( 3.000000000000000888, 12.69999999999999929, 0.000000000000000000 ) ) ;
#23 = APPROVAL_PERSON_ORGANIZATION ( #172, #45, #1 ) ;
#24 = CC_DESIGN_SECURITY_CLASSIFICATION ( #174, ( #127 ) ) ;
#25 = PERSON_AND_ORGANIZATION_ROLE ( 'creator' ) ;
#26 = DATE_AND_TIME ( #144, #49 ) ;
#27 = COORDINATED_UNIVERSAL_TIME_OFFSET ( 8, 0, .AHEAD. ) ;
#28 = ORIENTED_EDGE ( 'NONE', *, *, #154, .T. ) ;
#29 = APPROVAL_STATUS ( 'not_yet_approved' ) ;
#30 = EDGE_LOOP ( 'NONE', ( #117, #28, #100, #162 ) ) ;
#31 = EDGE_LOOP ( 'NONE', ( #64, #57, #95, #132 ) ) ;
#32 = CC_DESIGN_PERSON_AND_ORGANIZATION_ASSIGNMENT ( #90, #128, ( #80 ) ) ;
#33 = DESIGN_CONTEXT ( 'detailed design', #73, 'design' ) ;
#34 = DIRECTION ( 'NONE',  ( -1.000000000000000000, -0.000000000000000000, -0.000000000000000000 ) ) ;
#35 = VECTOR ( 'NONE', #68, 1000.000000000000000 ) ;
#36 = CARTESIAN_POINT ( 'NONE',  ( -3.000000000000000000, 0.000000000000000000, 0.000000000000000000 ) ) ;
#37 = DIRECTION ( 'NONE',  ( -1.000000000000000000, -0.000000000000000000, -0.000000000000000000 ) ) ;
#38 = LOCAL_TIME ( 17, 10, 7.000000000000000000, #47 ) ;
#39 = ADVANCED_FACE ( 'NONE', ( #52 ), #83, .F. ) ;
#40 = APPROVAL_ROLE ( '' ) ;
#41 = DIRECTION ( 'NONE',  ( -1.000000000000000000, -0.000000000000000000, -0.000000000000000000 ) ) ;
#42 = CARTESIAN_POINT ( 'NONE',  ( -1.614212418857619014, 0.000000000000000000, 0.000000000000000000 ) ) ;
#43 = DIRECTION ( 'NONE',  ( 0.000000000000000000, 0.000000000000000000, 1.000000000000000000 ) ) ;
#44 = CARTESIAN_POINT ( 'NONE',  ( -1.614212418857619014, 0.000000000000000000, 15.00000000000000000 ) ) ;
#45 = APPROVAL ( #60, 'UNSPECIFIED' ) ;
#46 = CARTESIAN_POINT ( 'NONE',  ( 0.000000000000000000, 0.000000000000000000, 0.000000000000000000 ) ) ;
#47 = COORDINATED_UNIVERSAL_TIME_OFFSET ( 8, 0, .AHEAD. ) ;
#48 = CALENDAR_DATE ( 2020, 22, 12 ) ;
#49 = LOCAL_TIME ( 17, 10, 7.000000000000000000, #14 ) ;
#50 = PERSON_AND_ORGANIZATION ( #102, #118 ) ;
#51 = SHAPE_DEFINITION_REPRESENTATION ( #71, #58 ) ;
#52 = FACE_OUTER_BOUND ( 'NONE', #168, .T. ) ;
#53 = CARTESIAN_POINT ( 'NONE',  ( 3.000000000000000000, 1.836970198721029589E-15, -15.00000000000000000 ) ) ;
#54 = CARTESIAN_POINT ( 'NONE',  ( 3.000000000000000000, 0.000000000000000000, 0.000000000000000000 ) ) ;
#55 = AXIS2_PLACEMENT_3D ( 'NONE', #42, #16, #125 ) ;
#56 = CC_DESIGN_PERSON_AND_ORGANIZATION_ASSIGNMENT ( #2, #85, ( #101 ) ) ;
#57 = ORIENTED_EDGE ( 'NONE', *, *, #11, .T. ) ;
#58 = ADVANCED_BREP_SHAPE_REPRESENTATION ( 'Q-AZHWP-25.4-405-M', ( #21, #114 ), #167 ) ;
#59 =( NAMED_UNIT ( * ) SI_UNIT ( $, .STERADIAN. ) SOLID_ANGLE_UNIT ( ) );
#60 = APPROVAL_STATUS ( 'not_yet_approved' ) ;
#61 = DATE_TIME_ROLE ( 'creation_date' ) ;
#62 = APPROVAL_PERSON_ORGANIZATION ( #155, #77, #40 ) ;
#63 = APPROVAL_DATE_TIME ( #88, #77 ) ;
#64 = ORIENTED_EDGE ( 'NONE', *, *, #9, .T. ) ;
#65 = VERTEX_POINT ( 'NONE', #123 ) ;
#66 = CARTESIAN_POINT ( 'NONE',  ( -3.000000000000000888, 12.69999999999999929, 0.000000000000000000 ) ) ;
#67 = VECTOR ( 'NONE', #37, 1000.000000000000000 ) ;
#68 = DIRECTION ( 'NONE',  ( -1.000000000000000000, -0.000000000000000000, -0.000000000000000000 ) ) ;
#69 = DIRECTION ( 'NONE',  ( -1.000000000000000000, -0.000000000000000000, -0.000000000000000000 ) ) ;
#70 = AXIS2_PLACEMENT_3D ( 'NONE', #66, #121, #165 ) ;
#71 = PRODUCT_DEFINITION_SHAPE ( 'NONE', 'NONE',  #80 ) ;
#72 = SECURITY_CLASSIFICATION_LEVEL ( 'unclassified' ) ;
#73 = APPLICATION_CONTEXT ( 'configuration controlled 3d designs of mechanical parts and assemblies' ) ;
#74 = CC_DESIGN_DATE_AND_TIME_ASSIGNMENT ( #104, #131, ( #174 ) ) ;
#75 = DIRECTION ( 'NONE',  ( 1.000000000000000000, 0.000000000000000000, 0.000000000000000000 ) ) ;
#76 = CALENDAR_DATE ( 2020, 22, 12 ) ;
#77 = APPROVAL ( #29, 'UNSPECIFIED' ) ;
#78 = PERSON_AND_ORGANIZATION ( #102, #118 ) ;
#79 = LINE ( 'NONE', #92, #35 ) ;
#80 = PRODUCT_DEFINITION ( 'UNKNOWN', '', #127, #33 ) ;
#81 = VERTEX_POINT ( 'NONE', #53 ) ;
#82 = DIRECTION ( 'NONE',  ( 0.000000000000000000, 0.000000000000000000, 1.000000000000000000 ) ) ;
#83 = PLANE ( 'NONE',  #169 ) ;
#84 =( LENGTH_UNIT ( ) NAMED_UNIT ( * ) SI_UNIT ( .MILLI., .METRE. ) );
#85 = PERSON_AND_ORGANIZATION_ROLE ( 'design_owner' ) ;
#86 = EDGE_CURVE ( 'NONE', #113, #65, #93, .T. ) ;
#87 = APPROVAL_ROLE ( '' ) ;
#88 = DATE_AND_TIME ( #76, #96 ) ;
#89 = AXIS2_PLACEMENT_3D ( 'NONE', #54, #34, #145 ) ;
#90 = PERSON_AND_ORGANIZATION ( #102, #118 ) ;
#91 = DATE_AND_TIME ( #105, #38 ) ;
#92 = CARTESIAN_POINT ( 'NONE',  ( -1.614212418857619014, 1.836970198721029589E-15, -15.00000000000000000 ) ) ;
#93 = CIRCLE ( 'NONE', #161, 15.00000000000000000 ) ;
#94 = UNCERTAINTY_MEASURE_WITH_UNIT (LENGTH_MEASURE( 1.000000000000000082E-05 ), #84, 'distance_accuracy_value', 'NONE');
#95 = ORIENTED_EDGE ( 'NONE', *, *, #86, .F. ) ;
#96 = LOCAL_TIME ( 17, 10, 7.000000000000000000, #27 ) ;
#97 = ORIENTED_EDGE ( 'NONE', *, *, #86, .T. ) ;
#98 = CIRCLE ( 'NONE', #89, 15.00000000000000000 ) ;
#99 = CARTESIAN_POINT ( 'NONE',  ( -1.614212418857619014, 0.000000000000000000, 0.000000000000000000 ) ) ;
#100 = ORIENTED_EDGE ( 'NONE', *, *, #12, .T. ) ;
#101 = PRODUCT ( 'Q-AZHWP-25.4-405-M', 'Q-AZHWP-25.4-405-M', '', ( #175 ) ) ;
#102 = PERSON ( 'UNSPECIFIED', 'UNSPECIFIED', 'UNSPECIFIED', ('UNSPECIFIED'), ('UNSPECIFIED'), ('UNSPECIFIED') ) ;
#103 = APPLICATION_PROTOCOL_DEFINITION ( 'international standard', 'config_control_design', 1994, #73 ) ;
#104 = DATE_AND_TIME ( #130, #163 ) ;
#105 = CALENDAR_DATE ( 2020, 22, 12 ) ;
#106 = CC_DESIGN_PERSON_AND_ORGANIZATION_ASSIGNMENT ( #142, #13, ( #174 ) ) ;
#107 = DIRECTION ( 'NONE',  ( 0.000000000000000000, 0.000000000000000000, 1.000000000000000000 ) ) ;
#108 = DIRECTION ( 'NONE',  ( 0.000000000000000000, 0.000000000000000000, 1.000000000000000000 ) ) ;
#109 = CC_DESIGN_DATE_AND_TIME_ASSIGNMENT ( #26, #61, ( #80 ) ) ;
#110 = ORIENTED_EDGE ( 'NONE', *, *, #9, .F. ) ;
#111 = FACE_OUTER_BOUND ( 'NONE', #30, .T. ) ;
#112 = APPROVAL ( #158, 'UNSPECIFIED' ) ;
#113 = VERTEX_POINT ( 'NONE', #146 ) ;
#114 = AXIS2_PLACEMENT_3D ( 'NONE', #46, #107, #75 ) ;
#115 = COORDINATED_UNIVERSAL_TIME_OFFSET ( 8, 0, .AHEAD. ) ;
#116 = DATE_AND_TIME ( #48, #10 ) ;
#117 = ORIENTED_EDGE ( 'NONE', *, *, #11, .F. ) ;
#118 = ORGANIZATION ( 'UNSPECIFIED', 'UNSPECIFIED', '' ) ;
#119 = EDGE_CURVE ( 'NONE', #65, #113, #133, .T. ) ;
#120 = LINE ( 'NONE', #44, #67 ) ;
#121 = DIRECTION ( 'NONE',  ( 1.000000000000000000, 0.000000000000000000, 0.000000000000000000 ) ) ;
#122 = CLOSED_SHELL ( 'NONE', ( #150, #39, #4, #20 ) ) ;
#123 = CARTESIAN_POINT ( 'NONE',  ( -3.000000000000000000, 1.836970198721029589E-15, -15.00000000000000000 ) ) ;
#124 = DIRECTION ( 'NONE',  ( -0.000000000000000000, 0.000000000000000000, 1.000000000000000000 ) ) ;
#125 = DIRECTION ( 'NONE',  ( 0.000000000000000000, 0.000000000000000000, 1.000000000000000000 ) ) ;
#126 = AXIS2_PLACEMENT_3D ( 'NONE', #99, #69, #43 ) ;
#127 = PRODUCT_DEFINITION_FORMATION_WITH_SPECIFIED_SOURCE ( 'ANY', '', #101, .NOT_KNOWN. ) ;
#128 = PERSON_AND_ORGANIZATION_ROLE ( 'creator' ) ;
#129 = APPLICATION_CONTEXT ( 'configuration controlled 3d designs of mechanical parts and assemblies' ) ;
#130 = CALENDAR_DATE ( 2020, 22, 12 ) ;
#131 = DATE_TIME_ROLE ( 'classification_date' ) ;
#132 = ORIENTED_EDGE ( 'NONE', *, *, #12, .F. ) ;
#133 = CIRCLE ( 'NONE', #147, 15.00000000000000000 ) ;
#134 = ORIENTED_EDGE ( 'NONE', *, *, #154, .F. ) ;
#135 = CC_DESIGN_APPROVAL ( #45, ( #174 ) ) ;
#136 = PRODUCT_RELATED_PRODUCT_CATEGORY ( 'detail', '', ( #101 ) ) ;
#137 = CARTESIAN_POINT ( 'NONE',  ( -3.000000000000000000, 0.000000000000000000, 0.000000000000000000 ) ) ;
#138 = CC_DESIGN_APPROVAL ( #77, ( #127 ) ) ;
#139 = APPLICATION_PROTOCOL_DEFINITION ( 'international standard', 'config_control_design', 1994, #129 ) ;
#140 = APPROVAL_DATE_TIME ( #91, #112 ) ;
#141 = CIRCLE ( 'NONE', #156, 15.00000000000000000 ) ;
#142 = PERSON_AND_ORGANIZATION ( #102, #118 ) ;
#143 = APPROVAL_DATE_TIME ( #116, #45 ) ;
#144 = CALENDAR_DATE ( 2020, 22, 12 ) ;
#145 = DIRECTION ( 'NONE',  ( 0.000000000000000000, 0.000000000000000000, 1.000000000000000000 ) ) ;
#146 = CARTESIAN_POINT ( 'NONE',  ( -3.000000000000000000, 0.000000000000000000, 15.00000000000000000 ) ) ;
#147 = AXIS2_PLACEMENT_3D ( 'NONE', #137, #19, #108 ) ;
#148 = FACE_OUTER_BOUND ( 'NONE', #3, .T. ) ;
#149 =( NAMED_UNIT ( * ) PLANE_ANGLE_UNIT ( ) SI_UNIT ( $, .RADIAN. ) );
#150 = ADVANCED_FACE ( 'NONE', ( #8 ), #160, .T. ) ;
#151 = ORIENTED_EDGE ( 'NONE', *, *, #119, .T. ) ;
#152 = PERSON_AND_ORGANIZATION_ROLE ( 'design_supplier' ) ;
#153 = PERSON_AND_ORGANIZATION ( #102, #118 ) ;
#154 = EDGE_CURVE ( 'NONE', #81, #157, #98, .T. ) ;
#155 = PERSON_AND_ORGANIZATION ( #102, #118 ) ;
#156 = AXIS2_PLACEMENT_3D ( 'NONE', #18, #41, #7 ) ;
#157 = VERTEX_POINT ( 'NONE', #166 ) ;
#158 = APPROVAL_STATUS ( 'not_yet_approved' ) ;
#159 = CC_DESIGN_PERSON_AND_ORGANIZATION_ASSIGNMENT ( #153, #152, ( #127 ) ) ;
#160 = CYLINDRICAL_SURFACE ( 'NONE', #55, 15.00000000000000000 ) ;
#161 = AXIS2_PLACEMENT_3D ( 'NONE', #36, #6, #82 ) ;
#162 = ORIENTED_EDGE ( 'NONE', *, *, #119, .F. ) ;
#163 = LOCAL_TIME ( 17, 10, 7.000000000000000000, #15 ) ;
#164 = DIRECTION ( 'NONE',  ( -1.000000000000000000, 0.000000000000000000, -0.000000000000000000 ) ) ;
#165 = DIRECTION ( 'NONE',  ( 0.000000000000000000, 0.000000000000000000, -1.000000000000000000 ) ) ;
#166 = CARTESIAN_POINT ( 'NONE',  ( 3.000000000000000000, 0.000000000000000000, 15.00000000000000000 ) ) ;
#167 =( GEOMETRIC_REPRESENTATION_CONTEXT ( 3 ) GLOBAL_UNCERTAINTY_ASSIGNED_CONTEXT ( ( #94 ) ) GLOBAL_UNIT_ASSIGNED_CONTEXT ( ( #84, #149, #59 ) ) REPRESENTATION_CONTEXT ( 'NONE', 'WORKASPACE' ) );
#168 = EDGE_LOOP ( 'NONE', ( #110, #134 ) ) ;
#169 = AXIS2_PLACEMENT_3D ( 'NONE', #22, #164, #124 ) ;
#170 = CC_DESIGN_PERSON_AND_ORGANIZATION_ASSIGNMENT ( #78, #25, ( #127 ) ) ;
#171 = APPROVAL_PERSON_ORGANIZATION ( #50, #112, #87 ) ;
#172 = PERSON_AND_ORGANIZATION ( #102, #118 ) ;
#173 = CC_DESIGN_APPROVAL ( #112, ( #80 ) ) ;
#174 = SECURITY_CLASSIFICATION ( '', '', #72 ) ;
#175 = MECHANICAL_CONTEXT ( 'NONE', #129, 'mechanical' ) ;
ENDSEC;
END-ISO-10303-21;
